Chord Endank Soekamti - Zzztt (tab) - PutuBlog18
PBPUTUBLOG18
Saturday, 9 April 2011

Chord Endank Soekamti - Zzztt (tab)


Tab1
e|--------------------------------------------------------------|
B|--------------------------------------------------------------|
G|-------4-4-4---4-4-4---4-4----------4-4-4---4-4-4-5-4-4-------|
D|----5--------7-------7-----5-----5--------7-------------7--7--|
A|-5----------------------------5-------------------------------|
E|--------------------------------------------------------------|

e|--------------------------------------------------------------|
B|--------------------------------------------------------------|
G|----4--5-5-5-4-5-5-5-7-4-----------4-4-4---4-4-4-5------------|
D|-7------------------------5-----5--------7----------7---------|
A|-----------------------------5--------------------------------|
E|--------------------------------------------------------------|
WWW.PUTUADIT.CO.CC
TabC        TabF#       TabG        TabA
e|---|      e|----|     e|----|     e|----|
B|---|      B|----|     B|----|     B|----|
G|-5-|      G|-11-|     G|-12-|     G|-14-|
D|---|      D|----|     D|----|     D|----|
A|-3-|      A|--9-|     A|-10-|     A|-12-|
E|---|      E|----|     E|----|     E|----|

Tab2
e|-------------------------------------------------------------|
B|-------------------------------------------------------------|
G|-------------------------------------------------------------|
D|-------------------------------------------------------------|
A|------2--3--3-4--5-5-5-5-6-6-6-6-7--2--7-6--2--6-5--2--5--6--|
E|-3--3--------------------------------------------------------|


G5 F#5

G5               A5           E5
Jangan ganggu aku tidur hari ini teman-teman
G5             F#5            G5
aku sedang malas aku ingin tidur
G5               A5           E5
Jangan coba-coba bangunkan aku dari mimpiku
G5                F#5
bila kau tak ingin memari mukamu

Tab1 (2x)               
G F# A E G F# (2X)    


G5       C5       A5          E5
Nyamuk-nyamuk pun tak boleh menggigitku hari ini
G5    C5         D5           G5
aku sedang tidak mendonor darahku

B5                E5
Sabar dan sabar tunggu sampai aku berbaring
B5                E5 F#5 G5 D5
Sabar dan tunggu sampai
WWW.PUTUADIT.CO.CC
        TabC                       
        G5          C5             
Maafkanlah aku, aku ingin bebas
       TabG  TabF#         TabA TabG     
       D5                  E5      D5    
Beri aku waktu, pejamkan mataku
        TabF#  TabA    TabF#\      
        C5             D5\         
Aku ingin tidur

Tab1 (2x)               
G F# A E G F# (2X)      

B5                E5
Sabar dan sabar tunggu sampai aku berbaring
B5                E5 F#5 G5 D5
Sabar dan tunggu sampai

Tab2
Maafkanlah aku, aku ingin bebas
Beri aku waktu, pejamkan mataku

JIKA INGIN DOWNLOAD LAGUNYA